sábado, 19 de febrero de 2011

D.I.Y. - Alone + Easy Target de Foo Fighters

Me ha gustado esto de poner tablaturas en el blog. Además, así no las perderé.
Como no tenemos línea directa con los Foo Fighters, pues no esperaremos a que Dave nos la mande, no que nos grabe un vídeo explicativo
También ha pasado por la supervisión de mi profe, y es que las que hay por ahí, no están del todo bien
En todo caso, una canción muy sencilla pero muy divertida de tocar con la guitarra

Primero la letra:
They knew all along
They're not dumb, they were so wrong
She's not always fun
Hate it now, call when I'm done

Pieces fell in place
Puzzles suck, laughin my face
Turn and swing the pace
I'll give this, keep the good waist

Head is on
I want out
I'm alone and I'm an easy target
Metronome
I want out
I'm alone and I'm an easy target

Crazy t.v. dreams might be true
Not what it seems.
Food and cavitys, chewing words
Tear at the seams
He don't feel so good, don't feel bad
Not that he should
I don't feel so good, don't feel bad
Not that I should

Did you ever listen? get out.


Y aquí van los acordes
Hay que afinar en Re la 6ª cuerda (Drop D)
La intro y la estrofa es igual. Empieza con un D tocando todas las cuerdas, y con el dedo meñique se va tocando el traste 3 como véis abajo. Las veces que toca cada nota no están exactas. Pero es muy fácil, y enseguida cogeréis el ritmo

e--2-3-2--3-2----3-2----3-2------------0------------0-------
B--3-3-3--3-3----3-3----3-3------------0------------0-------
G--2-2-2--2-2----2-2----2-2----3-3-3--------1-1-1-----------
D--0-0-0--0-0----0-0----0-0----4-4-4--------2-2-2-----------
A--0-0-0--0-0----0-0----0-0----4-4-4--------2-2-2-----------
D--0-0-0--0-0----0-0----0-0----4-4-4--------2-2-2-----------

Estribillo:
e----------------------------------------------------------------
B----------------------------------------------------------------
G----------------------------------------------------------------
D-0---0---0---3---5---5---5---3---0---0---0---3---7---7---7---7--
A-0---0---0---3---5---5---5---3---0---0---0---3---7---7---7---7--
D-0---0---0---3---5---5---5---3---0---0---0---3---7---7---7---7--
Head is on I want out.

e----------------------------------------------------
B----------------------------------------------------
G-----------------------------------5--5--5--5-------
D-5------3---0------3---0---3---0---5--5--5--5-------
A-5------3---0------3---0---3---0---3--3--3--3-------
D-5------3---0------3---0---3---0--------------------
I'm alone and I'm an easy target...


Puente:

e--------------------------------------------------
B--------------------------------------------------
G--------------------------------------------------
D--5--5--5---5---5--5--5--5--5--5--5--5--5--5--3--0
A--5--5--7---5---5--7--5--5--7--5--5--7--5--5--3--0
D--5--5--5---5---5--5--5--5--5--5--5--5--5--5--3--0
Did you ever listen ?

e-------------------------------------------------
B-------------------------------------------------
G-------------------------------------------------
D--7--7--7--7---7--7--7--7---7--7--7--7---7--10---
A--7--7--7--7---7--7--7--7---7--7--7--7---7--10---
D--7--7--7--7---7--7--7--7---7--7--7--7---7--10---
Get out! Get out! Get out!

No hay comentarios:

Publicar un comentario en la entrada